MIME-Version: 1.0 Content-Location: file:///C:/19047113/LyinEyes.htm Content-Transfer-Encoding: quoted-printable Content-Type: text/html; charset="us-ascii" Lyin' Eyes

Lyin' Eyes
Eagles            =             &nb= sp;            =             &nb= sp;            =            @ =3D rundown  $ =3D Double lick

 

Intro

 

(First verse is straight chord strums)
1.
City girls just seem to find out early
How to open doors with just a smile
A rich old man
And she won't have to worry
She'll dress up all in lace and go in style

2.  Late at night a big old ho= use gets lonely

I guess eve= ry form of refuge has its price    = ;        

|--------------------------------------|

|-13-------------------10------------8-|

|----12b14r12-11--9b11----11r9-7-------|

|--------------------------------8h9---|

|--------------------------------------|

|-D------------------------------------|

 

And it brea= ks her heart to think her love is only &nb= sp;

|-7h8---------------7---|

|-----10b12r10-8-10-----|

|---------------------9-|

|-----------------------|

|-----------------------|

|-C---------------------|

 

Given to a = man with hands as cold as ice  <= /o:p>

|---------|

|-----7---|

|---7---5-|

|-7-------|

|-H-H-H-H-|

|---------|

 

3.  So she tells him she must go out= for the evening

|-7-------5---------3-|    @

|---8-------7-------5-|

|-----9\7-----7\5---5-|

|---------------------|

|-----------------0---|

|---------------------|

To comfort an= old friend who's feelin' down
But he knows where she's goin' as she's leavin'   &= nbsp;  @

She is head= ed for the cheatin' side of town   

|-7h8-7--------|       $<= /p>

|-------7-7h8--|

|-7h9-7--------|

|-------7-7h9--|

|--------------|

|--------------|

 


 

Chorus=

You can't h= ide your lyin' eyes
And your smile is a thin disguise
I thought by now you'd realize
There ain't no way to hide your lyin eyes
Intro lick

4.  On the other side of town a boy = is waiting
with fiery eyes and dreams no one could steal
She drives on through the night anticipating
'Cause he makes her feel the way she used to feel


5.  She rushes to his arms,

(Vocal oohs)
They fall together  @
She whispers that it's only for awhile
She swears that soon she'll be comin' back fore= ver         &= nbsp; @
She pulls away and leaves him with a smile =             &nb= sp;          $

Chorus=

You can't h= ide your lyin' eyes
And your smile is a thin disguise
I thought by now you'd realize
There ain't no way to hide your lyin' eyes

Intro lick = (all)

6.  She gets up and pours herself a = strong one
And stares out at the stars up in the sky
Another night, it's gonna be a long one
She draws the shade and hangs her head to cry


7.  She wonders how it ever go= t this crazy
(Vocal oohs)

She thinks = about a boy she knew in school

 =

|-14--12--10---8--7-|

|-15--13--12--10--8-|

|-------------------|

|-------------------|

|-------------------|

|-------------------|

(Mandolin l= ick)

Did she get t= ired or did she just get lazy?

She's so fa= r gone she feels just like a fool

|-15----15--10----10----|

|-15h17-15--10h12-10----|

|--------------------12-|

|-----------------------|

|-----------------------|

|-----------------------|

(Mandolin l= ick)

 



8.  My, oh my, you sure know h= ow to arrange things     &nbs= p;  @

You set it = up so well, so carefully

|-------10------8-----7-----5--|

|------------------------------|

|-10/11----11\9---9\7---7\5----|

|------------------------------|

|------------------------------|

|------------------------------|

Ain't it funny how your new life didn't ch= ange things      @
You're still the same old girl you used to be             =            $

Chorus
You can't hide your lyin eyes
And your smile is a thin disguise
But by now you'd realize
There ain't no way to hide your lyin' eyes ½ Intro lick

There ain't no way to hide your lyin' eyes    ½ Intro lick
Honey, you can't hide your lyin' eyes

Inst lick